ISO-10303-21;
HEADER;
FILE_DESCRIPTION (( 'STEP AP203' ),
    '1' );
FILE_NAME ('462548842_c_1.STEP',
    '2022-12-05T14:00:21',
    ( '' ),
    ( '' ),
    'SwSTEP 2.0',
    'SolidWorks 2014',
    '' );
FILE_SCHEMA (( 'CONFIG_CONTROL_DESIGN' ));
ENDSEC;

DATA;
#1 = CARTESIAN_POINT ( 'NONE',  ( -8.000000000000000000, -18.00000000000000400, 2.500000000000000000 ) ) ;
#2 = LOCAL_TIME ( 6, 0, 21.00000000000000000, #308 ) ;
#3 = VECTOR ( 'NONE', #318, 1000.000000000000000 ) ;
#4 = CALENDAR_DATE ( 2022, 5, 12 ) ;
#5 = VERTEX_POINT ( 'NONE', #166 ) ;
#6 = ADVANCED_FACE ( 'NONE', ( #22 ), #230, .T. ) ;
#7 = PRODUCT_RELATED_PRODUCT_CATEGORY ( 'detail', '', ( #68 ) ) ;
#8 = DIRECTION ( 'NONE',  ( 0.0000000000000000000, -1.000000000000000000, 1.224646799147350000E-016 ) ) ;
#9 = PERSON_AND_ORGANIZATION ( #205, #29 ) ;
#10 = ORIENTED_EDGE ( 'NONE', *, *, #227, .F. ) ;
#11 = DIRECTION ( 'NONE',  ( 0.0000000000000000000, -0.7071067811865480200, -0.7071067811865470200 ) ) ;
#12 = CARTESIAN_POINT ( 'NONE',  ( 9.000000000000001800, -4.742640687118999700, 20.00000000000000000 ) ) ;
#13 = AXIS2_PLACEMENT_3D ( 'NONE', #109, #347, #67 ) ;
#14 = DATE_AND_TIME ( #281, #58 ) ;
#15 = VERTEX_POINT ( 'NONE', #340 ) ;
#16 = EDGE_CURVE ( 'NONE', #123, #216, #282, .T. ) ;
#17 = APPROVAL_ROLE ( '' ) ;
#18 = APPROVAL_STATUS ( 'not_yet_approved' ) ;
#19 = LOCAL_TIME ( 6, 0, 21.00000000000000000, #146 ) ;
#20 = LINE ( 'NONE', #83, #297 ) ;
#21 = DATE_TIME_ROLE ( 'classification_date' ) ;
#22 = FACE_OUTER_BOUND ( 'NONE', #314, .T. ) ;
#23 = DIRECTION ( 'NONE',  ( -0.0000000000000000000, -0.0000000000000000000, 1.000000000000000000 ) ) ;
#24 = EDGE_CURVE ( 'NONE', #310, #15, #88, .T. ) ;
#25 = CARTESIAN_POINT ( 'NONE',  ( 9.000000000000001800, -18.00000000000000400, 0.0000000000000000000 ) ) ;
#26 = VECTOR ( 'NONE', #275, 1000.000000000000100 ) ;
#27 = ORIENTED_EDGE ( 'NONE', *, *, #24, .F. ) ;
#28 = CARTESIAN_POINT ( 'NONE',  ( 9.000000000000001800, 2.204364238465240200E-015, 18.00000000000000400 ) ) ;
#29 = ORGANIZATION ( 'UNSPECIFIED', 'UNSPECIFIED', '' ) ;
#30 = ORIENTED_EDGE ( 'NONE', *, *, #36, .F. ) ;
#31 = ORIENTED_EDGE ( 'NONE', *, *, #294, .F. ) ;
#32 = EDGE_CURVE ( 'NONE', #244, #104, #264, .T. ) ;
#33 = PLANE ( 'NONE',  #130 ) ;
#34 = CLOSED_SHELL ( 'NONE', ( #211, #296, #82, #241, #116, #86, #115, #206, #327, #6 ) ) ;
#35 = EDGE_CURVE ( 'NONE', #104, #350, #171, .T. ) ;
#36 = EDGE_CURVE ( 'NONE', #15, #338, #122, .T. ) ;
#37 = LOCAL_TIME ( 6, 0, 21.00000000000000000, #295 ) ;
#38 = LINE ( 'NONE', #177, #337 ) ;
#39 = DIRECTION ( 'NONE',  ( 0.0000000000000000000, -1.224646799147350000E-016, -1.000000000000000000 ) ) ;
#40 = AXIS2_PLACEMENT_3D ( 'NONE', #173, #81, #320 ) ;
#41 = DIRECTION ( 'NONE',  ( 0.0000000000000000000, 0.7071067811865470200, -0.7071067811865480200 ) ) ;
#42 = ORIENTED_EDGE ( 'NONE', *, *, #112, .T. ) ;
#43 = ORIENTED_EDGE ( 'NONE', *, *, #16, .T. ) ;
#44 = APPROVAL_STATUS ( 'not_yet_approved' ) ;
#45 = APPROVAL_PERSON_ORGANIZATION ( #266, #268, #17 ) ;
#46 = VECTOR ( 'NONE', #197, 1000.000000000000000 ) ;
#47 = CARTESIAN_POINT ( 'NONE',  ( -8.000000000000000000, -2.499999999999990200, 17.99999999999999300 ) ) ;
#48 = DIRECTION ( 'NONE',  ( 1.000000000000000000, 0.0000000000000000000, 0.0000000000000000000 ) ) ;
#49 = VERTEX_POINT ( 'NONE', #311 ) ;
#50 = ORIENTED_EDGE ( 'NONE', *, *, #301, .F. ) ;
#51 = PLANE ( 'NONE',  #40 ) ;
#52 = EDGE_CURVE ( 'NONE', #310, #349, #342, .T. ) ;
#53 = CARTESIAN_POINT ( 'NONE',  ( -9.000000000000001800, -18.00000000000000700, 3.469446951953614200E-015 ) ) ;
#54 = DIRECTION ( 'NONE',  ( 0.0000000000000000000, -1.224646799147350000E-016, -1.000000000000000000 ) ) ;
#55 = LINE ( 'NONE', #354, #46 ) ;
#56 = PLANE ( 'NONE',  #70 ) ;
#57 = CARTESIAN_POINT ( 'NONE',  ( 9.000000000000001800, -20.00000000000000400, 4.742640687118999700 ) ) ;
#58 = LOCAL_TIME ( 6, 0, 21.00000000000000000, #222 ) ;
#59 = EDGE_LOOP ( 'NONE', ( #262, #228, #94, #322, #357, #113, #179, #43 ) ) ;
#60 = CARTESIAN_POINT ( 'NONE',  ( -8.000000000000000000, -18.00000000000000400, 2.500000000000000000 ) ) ;
#61 = EDGE_CURVE ( 'NONE', #204, #249, #185, .T. ) ;
#62 = CARTESIAN_POINT ( 'NONE',  ( -9.000000000000001800, -2.499999999999995600, 18.00000000000000000 ) ) ;
#63 = VECTOR ( 'NONE', #150, 1000.000000000000000 ) ;
#64 =( NAMED_UNIT ( * ) PLANE_ANGLE_UNIT ( ) SI_UNIT ( $, .RADIAN. ) );
#65 = VECTOR ( 'NONE', #23, 1000.000000000000000 ) ;
#66 = ORIENTED_EDGE ( 'NONE', *, *, #351, .F. ) ;
#67 = DIRECTION ( 'NONE',  ( 0.0000000000000000000, -1.224646799147350000E-016, -1.000000000000000000 ) ) ;
#68 = PRODUCT ( '462548842_c_1', '462548842_c_1', '', ( #339 ) ) ;
#69 = CARTESIAN_POINT ( 'NONE',  ( -9.000000000000001800, -20.00000000000000400, 2.959370275124162100E-015 ) ) ;
#70 = AXIS2_PLACEMENT_3D ( 'NONE', #60, #299, #11 ) ;
#71 = VECTOR ( 'NONE', #298, 1000.000000000000000 ) ;
#72 = PERSON_AND_ORGANIZATION_ROLE ( 'design_supplier' ) ;
#73 = SHAPE_DEFINITION_REPRESENTATION ( #170, #138 ) ;
#74 = FACE_OUTER_BOUND ( 'NONE', #59, .T. ) ;
#75 = ORIENTED_EDGE ( 'NONE', *, *, #168, .T. ) ;
#76 = PERSON_AND_ORGANIZATION ( #205, #29 ) ;
#77 = ORIENTED_EDGE ( 'NONE', *, *, #168, .F. ) ;
#78 = AXIS2_PLACEMENT_3D ( 'NONE', #355, #303, #92 ) ;
#79 = FACE_OUTER_BOUND ( 'NONE', #240, .T. ) ;
#80 = ORIENTED_EDGE ( 'NONE', *, *, #101, .T. ) ;
#81 = DIRECTION ( 'NONE',  ( 1.000000000000000000, 0.0000000000000000000, 0.0000000000000000000 ) ) ;
#82 = ADVANCED_FACE ( 'NONE', ( #74 ), #51, .T. ) ;
#83 = CARTESIAN_POINT ( 'NONE',  ( -9.000000000000001800, 2.204364238465240200E-015, 18.00000000000000400 ) ) ;
#84 = PERSON_AND_ORGANIZATION ( #205, #29 ) ;
#85 =( GEOMETRIC_REPRESENTATION_CONTEXT ( 3 ) GLOBAL_UNCERTAINTY_ASSIGNED_CONTEXT ( ( #208 ) ) GLOBAL_UNIT_ASSIGNED_CONTEXT ( ( #302, #64, #121 ) ) REPRESENTATION_CONTEXT ( 'NONE', 'WORKASPACE' ) );
#86 = ADVANCED_FACE ( 'NONE', ( #152 ), #192, .T. ) ;
#87 = PERSON_AND_ORGANIZATION ( #205, #29 ) ;
#88 = LINE ( 'NONE', #28, #159 ) ;
#89 = ORIENTED_EDGE ( 'NONE', *, *, #360, .F. ) ;
#90 = DIRECTION ( 'NONE',  ( 0.0000000000000000000, -1.000000000000000000, -0.0000000000000000000 ) ) ;
#91 = AXIS2_PLACEMENT_3D ( 'NONE', #246, #8, #39 ) ;
#92 = DIRECTION ( 'NONE',  ( 0.0000000000000000000, -1.000000000000000000, 1.224646799147350000E-016 ) ) ;
#93 = CALENDAR_DATE ( 2022, 5, 12 ) ;
#94 = ORIENTED_EDGE ( 'NONE', *, *, #294, .T. ) ;
#95 = APPROVAL_ROLE ( '' ) ;
#96 = LOCAL_TIME ( 6, 0, 21.00000000000000000, #158 ) ;
#97 = ORIENTED_EDGE ( 'NONE', *, *, #52, .F. ) ;
#98 = PERSON_AND_ORGANIZATION_ROLE ( 'design_owner' ) ;
#99 = EDGE_LOOP ( 'NONE', ( #293, #232, #80, #283 ) ) ;
#100 = APPROVAL ( #335, 'UNSPECIFIED' ) ;
#101 = EDGE_CURVE ( 'NONE', #123, #49, #203, .T. ) ;
#102 = DIRECTION ( 'NONE',  ( -0.0000000000000000000, 1.224646799147350000E-016, 1.000000000000000000 ) ) ;
#103 = LINE ( 'NONE', #258, #129 ) ;
#104 = VERTEX_POINT ( 'NONE', #199 ) ;
#105 = DIRECTION ( 'NONE',  ( 1.000000000000000000, 0.0000000000000000000, 0.0000000000000000000 ) ) ;
#106 = CC_DESIGN_DATE_AND_TIME_ASSIGNMENT ( #260, #223, ( #288 ) ) ;
#107 = CALENDAR_DATE ( 2022, 5, 12 ) ;
#108 = FACE_OUTER_BOUND ( 'NONE', #99, .T. ) ;
#109 = CARTESIAN_POINT ( 'NONE',  ( -9.000000000000001800, -20.00000000000000000, 20.00000000000000000 ) ) ;
#110 = CARTESIAN_POINT ( 'NONE',  ( -9.000000000000001800, 2.204364238465240200E-015, 18.00000000000000400 ) ) ;
#111 = DIRECTION ( 'NONE',  ( -1.000000000000000000, -0.0000000000000000000, -0.0000000000000000000 ) ) ;
#112 = EDGE_CURVE ( 'NONE', #253, #349, #193, .T. ) ;
#113 = ORIENTED_EDGE ( 'NONE', *, *, #120, .T. ) ;
#114 = ORIENTED_EDGE ( 'NONE', *, *, #351, .T. ) ;
#115 = ADVANCED_FACE ( 'NONE', ( #79 ), #33, .T. ) ;
#116 = ADVANCED_FACE ( 'NONE', ( #225 ), #348, .F. ) ;
#117 = PLANE ( 'NONE',  #91 ) ;
#118 = CC_DESIGN_APPROVAL ( #100, ( #148 ) ) ;
#119 = PLANE ( 'NONE',  #78 ) ;
#120 = EDGE_CURVE ( 'NONE', #338, #249, #210, .T. ) ;
#121 =( NAMED_UNIT ( * ) SI_UNIT ( $, .STERADIAN. ) SOLID_ANGLE_UNIT ( ) );
#122 = LINE ( 'NONE', #132, #316 ) ;
#123 = VERTEX_POINT ( 'NONE', #57 ) ;
#124 = CARTESIAN_POINT ( 'NONE',  ( 9.000000000000001800, -20.00000000000000400, 2.959370275124162100E-015 ) ) ;
#125 = PLANE ( 'NONE',  #280 ) ;
#126 = EDGE_CURVE ( 'NONE', #15, #253, #20, .T. ) ;
#127 = EDGE_CURVE ( 'NONE', #5, #338, #103, .T. ) ;
#128 = LINE ( 'NONE', #154, #224 ) ;
#129 = VECTOR ( 'NONE', #286, 1000.000000000000000 ) ;
#130 = AXIS2_PLACEMENT_3D ( 'NONE', #141, #54, #139 ) ;
#131 = PERSON_AND_ORGANIZATION_ROLE ( 'creator' ) ;
#132 = CARTESIAN_POINT ( 'NONE',  ( 9.000000000000001800, 2.204364238465240200E-015, 0.0000000000000000000 ) ) ;
#133 = VECTOR ( 'NONE', #312, 1000.000000000000000 ) ;
#134 = EDGE_LOOP ( 'NONE', ( #27, #317, #326, #344 ) ) ;
#135 = DIRECTION ( 'NONE',  ( -0.0000000000000000000, 1.000000000000000000, -1.224646799147350000E-016 ) ) ;
#136 = LINE ( 'NONE', #333, #305 ) ;
#137 = VECTOR ( 'NONE', #140, 1000.000000000000000 ) ;
#138 = ADVANCED_BREP_SHAPE_REPRESENTATION ( '462548842_c_1', ( #276, #319 ), #85 ) ;
#139 = DIRECTION ( 'NONE',  ( 0.0000000000000000000, 1.000000000000000000, -1.224646799147350000E-016 ) ) ;
#140 = DIRECTION ( 'NONE',  ( 0.0000000000000000000, -1.000000000000000000, -0.0000000000000000000 ) ) ;
#141 = CARTESIAN_POINT ( 'NONE',  ( -9.000000000000001800, -20.00000000000000000, 2.449293598294710100E-015 ) ) ;
#142 = EDGE_CURVE ( 'NONE', #216, #104, #358, .T. ) ;
#143 = ORIENTED_EDGE ( 'NONE', *, *, #127, .T. ) ;
#144 = ORIENTED_EDGE ( 'NONE', *, *, #364, .F. ) ;
#145 = EDGE_CURVE ( 'NONE', #216, #217, #55, .T. ) ;
#146 = COORDINATED_UNIVERSAL_TIME_OFFSET ( 8, 0, .BEHIND. ) ;
#147 = VERTEX_POINT ( 'NONE', #369 ) ;
#148 = PRODUCT_DEFINITION_FORMATION_WITH_SPECIFIED_SOURCE ( 'ANY', '', #68, .NOT_KNOWN. ) ;
#149 = DIRECTION ( 'NONE',  ( 0.0000000000000000000, 1.224646799147350000E-016, 1.000000000000000000 ) ) ;
#150 = DIRECTION ( 'NONE',  ( -0.0000000000000000000, 0.7071067811865480200, 0.7071067811865470200 ) ) ;
#151 = DIRECTION ( 'NONE',  ( 0.0000000000000000000, -0.7071067811865474600, -0.7071067811865474600 ) ) ;
#152 = FACE_OUTER_BOUND ( 'NONE', #180, .T. ) ;
#153 = ORIENTED_EDGE ( 'NONE', *, *, #142, .F. ) ;
#154 = CARTESIAN_POINT ( 'NONE',  ( -9.000000000000001800, -20.00000000000000000, 0.0000000000000000000 ) ) ;
#155 = CARTESIAN_POINT ( 'NONE',  ( -9.000000000000001800, 2.204364238465240200E-015, 0.0000000000000000000 ) ) ;
#156 = VECTOR ( 'NONE', #356, 1000.000000000000000 ) ;
#157 = APPROVAL_ROLE ( '' ) ;
#158 = COORDINATED_UNIVERSAL_TIME_OFFSET ( 8, 0, .BEHIND. ) ;
#159 = VECTOR ( 'NONE', #135, 1000.000000000000000 ) ;
#160 = ORIENTED_EDGE ( 'NONE', *, *, #360, .T. ) ;
#161 = CARTESIAN_POINT ( 'NONE',  ( 9.000000000000001800, -4.742640687118989900, 19.99999999999998900 ) ) ;
#162 = DATE_AND_TIME ( #107, #2 ) ;
#163 = LINE ( 'NONE', #12, #26 ) ;
#164 = EDGE_LOOP ( 'NONE', ( #285, #229, #10, #186 ) ) ;
#165 = EDGE_CURVE ( 'NONE', #147, #350, #243, .T. ) ;
#166 = CARTESIAN_POINT ( 'NONE',  ( -9.000000000000001800, 2.388061258337337800E-015, 20.00000000000000000 ) ) ;
#167 = CARTESIAN_POINT ( 'NONE',  ( -9.000000000000001800, -18.00000000000000400, 2.500000000000000000 ) ) ;
#168 = EDGE_CURVE ( 'NONE', #349, #147, #309, .T. ) ;
#169 = DIRECTION ( 'NONE',  ( -0.0000000000000000000, 1.000000000000000000, 0.0000000000000000000 ) ) ;
#170 = PRODUCT_DEFINITION_SHAPE ( 'NONE', 'NONE',  #288 ) ;
#171 = LINE ( 'NONE', #25, #65 ) ;
#172 = EDGE_LOOP ( 'NONE', ( #31, #257, #77, #97 ) ) ;
#173 = CARTESIAN_POINT ( 'NONE',  ( 9.000000000000001800, 0.0000000000000000000, 0.0000000000000000000 ) ) ;
#174 = CARTESIAN_POINT ( 'NONE',  ( -9.000000000000001800, 0.0000000000000000000, 0.0000000000000000000 ) ) ;
#175 = FACE_OUTER_BOUND ( 'NONE', #366, .T. ) ;
#176 = ORIENTED_EDGE ( 'NONE', *, *, #120, .F. ) ;
#177 = CARTESIAN_POINT ( 'NONE',  ( -9.000000000000001800, -4.742640687118999700, 20.00000000000000000 ) ) ;
#178 = APPROVAL_PERSON_ORGANIZATION ( #251, #100, #95 ) ;
#179 = ORIENTED_EDGE ( 'NONE', *, *, #364, .T. ) ;
#180 = EDGE_LOOP ( 'NONE', ( #143, #30, #332, #160 ) ) ;
#181 = APPLICATION_CONTEXT ( 'configuration controlled 3d designs of mechanical parts and assemblies' ) ;
#182 = CARTESIAN_POINT ( 'NONE',  ( 0.0000000000000000000, 0.0000000000000000000, 0.0000000000000000000 ) ) ;
#183 = DESIGN_CONTEXT ( 'detailed design', #187, 'design' ) ;
#184 = CARTESIAN_POINT ( 'NONE',  ( 9.000000000000001800, 2.388061258337337800E-015, 20.00000000000000000 ) ) ;
#185 = LINE ( 'NONE', #161, #237 ) ;
#186 = ORIENTED_EDGE ( 'NONE', *, *, #165, .T. ) ;
#187 = APPLICATION_CONTEXT ( 'configuration controlled 3d designs of mechanical parts and assemblies' ) ;
#188 = APPROVAL_DATE_TIME ( #14, #341 ) ;
#189 = CALENDAR_DATE ( 2022, 5, 12 ) ;
#190 = VECTOR ( 'NONE', #200, 1000.000000000000000 ) ;
#191 = DIRECTION ( 'NONE',  ( -0.0000000000000000000, -0.0000000000000000000, 1.000000000000000000 ) ) ;
#192 = PLANE ( 'NONE',  #263 ) ;
#193 = LINE ( 'NONE', #110, #3 ) ;
#194 = CC_DESIGN_PERSON_AND_ORGANIZATION_ASSIGNMENT ( #336, #98, ( #68 ) ) ;
#195 = ORIENTED_EDGE ( 'NONE', *, *, #145, .T. ) ;
#196 = DIRECTION ( 'NONE',  ( 0.0000000000000000000, 0.0000000000000000000, -1.000000000000000000 ) ) ;
#197 = DIRECTION ( 'NONE',  ( -1.000000000000000000, 0.0000000000000000000, -0.0000000000000000000 ) ) ;
#198 = VECTOR ( 'NONE', #196, 1000.000000000000000 ) ;
#199 = CARTESIAN_POINT ( 'NONE',  ( 9.000000000000001800, -18.00000000000000400, 2.581867256794701100E-015 ) ) ;
#200 = DIRECTION ( 'NONE',  ( 0.0000000000000000000, -0.7071067811865480200, -0.7071067811865470200 ) ) ;
#201 = CC_DESIGN_PERSON_AND_ORGANIZATION_ASSIGNMENT ( #87, #131, ( #148 ) ) ;
#202 = DIRECTION ( 'NONE',  ( -1.000000000000000000, -0.0000000000000000000, -0.0000000000000000000 ) ) ;
#203 = LINE ( 'NONE', #287, #331 ) ;
#204 = VERTEX_POINT ( 'NONE', #236 ) ;
#205 = PERSON ( 'UNSPECIFIED', 'UNSPECIFIED', 'UNSPECIFIED', ('UNSPECIFIED'), ('UNSPECIFIED'), ('UNSPECIFIED') ) ;
#206 = ADVANCED_FACE ( 'NONE', ( #108 ), #367, .T. ) ;
#207 = CC_DESIGN_APPROVAL ( #268, ( #288 ) ) ;
#208 = UNCERTAINTY_MEASURE_WITH_UNIT (LENGTH_MEASURE( 1.000000000000000100E-005 ), #302, 'distance_accuracy_value', 'NONE');
#209 = LINE ( 'NONE', #213, #63 ) ;
#210 = LINE ( 'NONE', #234, #137 ) ;
#211 = ADVANCED_FACE ( 'NONE', ( #300 ), #56, .F. ) ;
#212 = EDGE_CURVE ( 'NONE', #204, #49, #38, .T. ) ;
#213 = CARTESIAN_POINT ( 'NONE',  ( 9.000000000000001800, -18.00000000000000400, 2.500000000000000000 ) ) ;
#214 = DIRECTION ( 'NONE',  ( 0.0000000000000000000, 0.0000000000000000000, 1.000000000000000000 ) ) ;
#215 = DIRECTION ( 'NONE',  ( -0.0000000000000000000, -0.0000000000000000000, 1.000000000000000000 ) ) ;
#216 = VERTEX_POINT ( 'NONE', #124 ) ;
#217 = VERTEX_POINT ( 'NONE', #69 ) ;
#218 = CARTESIAN_POINT ( 'NONE',  ( 9.000000000000001800, -20.00000000000000000, 4.742640687118999700 ) ) ;
#219 = CC_DESIGN_PERSON_AND_ORGANIZATION_ASSIGNMENT ( #76, #221, ( #288 ) ) ;
#220 = CARTESIAN_POINT ( 'NONE',  ( 9.000000000000001800, -18.00000000000000400, 2.499999999999999600 ) ) ;
#221 = PERSON_AND_ORGANIZATION_ROLE ( 'creator' ) ;
#222 = COORDINATED_UNIVERSAL_TIME_OFFSET ( 8, 0, .BEHIND. ) ;
#223 = DATE_TIME_ROLE ( 'creation_date' ) ;
#224 = VECTOR ( 'NONE', #247, 1000.000000000000000 ) ;
#225 = FACE_OUTER_BOUND ( 'NONE', #252, .T. ) ;
#226 = APPLICATION_PROTOCOL_DEFINITION ( 'international standard', 'config_control_design', 1994, #187 ) ;
#227 = EDGE_CURVE ( 'NONE', #147, #244, #352, .T. ) ;
#228 = ORIENTED_EDGE ( 'NONE', *, *, #35, .T. ) ;
#229 = ORIENTED_EDGE ( 'NONE', *, *, #32, .F. ) ;
#230 = PLANE ( 'NONE',  #346 ) ;
#231 = CARTESIAN_POINT ( 'NONE',  ( -9.000000000000001800, 2.449293598294710100E-015, 20.00000000000000000 ) ) ;
#232 = ORIENTED_EDGE ( 'NONE', *, *, #16, .F. ) ;
#233 = DIRECTION ( 'NONE',  ( 1.000000000000000000, 0.0000000000000000000, 0.0000000000000000000 ) ) ;
#234 = CARTESIAN_POINT ( 'NONE',  ( 9.000000000000001800, 0.0000000000000000000, 20.00000000000000000 ) ) ;
#235 = CC_DESIGN_PERSON_AND_ORGANIZATION_ASSIGNMENT ( #84, #279, ( #274 ) ) ;
#236 = CARTESIAN_POINT ( 'NONE',  ( -9.000000000000001800, -4.742640687118997900, 19.99999999999999600 ) ) ;
#237 = VECTOR ( 'NONE', #284, 1000.000000000000000 ) ;
#238 = ORIENTED_EDGE ( 'NONE', *, *, #61, .F. ) ;
#239 = APPROVAL_DATE_TIME ( #365, #268 ) ;
#240 = EDGE_LOOP ( 'NONE', ( #195, #361, #265, #153 ) ) ;
#241 = ADVANCED_FACE ( 'NONE', ( #313 ), #117, .F. ) ;
#242 = CARTESIAN_POINT ( 'NONE',  ( -9.000000000000001800, -18.00000000000000400, 2.643099596752068700E-015 ) ) ;
#243 = LINE ( 'NONE', #1, #267 ) ;
#244 = VERTEX_POINT ( 'NONE', #242 ) ;
#245 = EDGE_CURVE ( 'NONE', #217, #244, #291, .T. ) ;
#246 = CARTESIAN_POINT ( 'NONE',  ( -9.000000000000001800, -18.00000000000000400, 20.00000000000000000 ) ) ;
#247 = DIRECTION ( 'NONE',  ( 0.0000000000000000000, 0.0000000000000000000, -1.000000000000000000 ) ) ;
#248 = DATE_AND_TIME ( #93, #96 ) ;
#249 = VERTEX_POINT ( 'NONE', #329 ) ;
#250 = SECURITY_CLASSIFICATION_LEVEL ( 'unclassified' ) ;
#251 = PERSON_AND_ORGANIZATION ( #205, #29 ) ;
#252 = EDGE_LOOP ( 'NONE', ( #306, #273, #50, #343, #66, #89, #42, #75 ) ) ;
#253 = VERTEX_POINT ( 'NONE', #325 ) ;
#254 = DIRECTION ( 'NONE',  ( 0.0000000000000000000, -1.000000000000000000, 1.224646799147350000E-016 ) ) ;
#255 = CC_DESIGN_PERSON_AND_ORGANIZATION_ASSIGNMENT ( #9, #72, ( #148 ) ) ;
#256 = FACE_OUTER_BOUND ( 'NONE', #134, .T. ) ;
#257 = ORIENTED_EDGE ( 'NONE', *, *, #165, .F. ) ;
#258 = CARTESIAN_POINT ( 'NONE',  ( -9.000000000000001800, 2.449293598294700200E-015, 20.00000000000000000 ) ) ;
#259 = PERSON_AND_ORGANIZATION ( #205, #29 ) ;
#260 = DATE_AND_TIME ( #4, #37 ) ;
#261 = ORIENTED_EDGE ( 'NONE', *, *, #101, .F. ) ;
#262 = ORIENTED_EDGE ( 'NONE', *, *, #142, .T. ) ;
#263 = AXIS2_PLACEMENT_3D ( 'NONE', #289, #290, #149 ) ;
#264 = LINE ( 'NONE', #53, #292 ) ;
#265 = ORIENTED_EDGE ( 'NONE', *, *, #32, .T. ) ;
#266 = PERSON_AND_ORGANIZATION ( #205, #29 ) ;
#267 = VECTOR ( 'NONE', #105, 1000.000000000000000 ) ;
#268 = APPROVAL ( #44, 'UNSPECIFIED' ) ;
#269 = APPLICATION_PROTOCOL_DEFINITION ( 'international standard', 'config_control_design', 1994, #181 ) ;
#270 = DIRECTION ( 'NONE',  ( 0.0000000000000000000, 0.7071067811865480200, 0.7071067811865470200 ) ) ;
#271 = CARTESIAN_POINT ( 'NONE',  ( -9.000000000000001800, 0.0000000000000000000, 2.449293598294710100E-015 ) ) ;
#272 = ORIENTED_EDGE ( 'NONE', *, *, #212, .T. ) ;
#273 = ORIENTED_EDGE ( 'NONE', *, *, #245, .F. ) ;
#274 = SECURITY_CLASSIFICATION ( '', '', #250 ) ;
#275 = DIRECTION ( 'NONE',  ( 0.0000000000000000000, -0.7071067811865474600, -0.7071067811865474600 ) ) ;
#276 = MANIFOLD_SOLID_BREP ( 'Volumenk\X\F6rper1', #34 ) ;
#277 = APPROVAL_PERSON_ORGANIZATION ( #259, #341, #157 ) ;
#278 = VECTOR ( 'NONE', #169, 1000.000000000000000 ) ;
#279 = PERSON_AND_ORGANIZATION_ROLE ( 'classification_officer' ) ;
#280 = AXIS2_PLACEMENT_3D ( 'NONE', #218, #41, #270 ) ;
#281 = CALENDAR_DATE ( 2022, 5, 12 ) ;
#282 = LINE ( 'NONE', #362, #198 ) ;
#283 = ORIENTED_EDGE ( 'NONE', *, *, #301, .T. ) ;
#284 = DIRECTION ( 'NONE',  ( 1.000000000000000000, -0.0000000000000000000, 0.0000000000000000000 ) ) ;
#285 = ORIENTED_EDGE ( 'NONE', *, *, #35, .F. ) ;
#286 = DIRECTION ( 'NONE',  ( 1.000000000000000000, -0.0000000000000000000, 0.0000000000000000000 ) ) ;
#287 = CARTESIAN_POINT ( 'NONE',  ( -9.000000000000001800, -20.00000000000000400, 4.742640687118999700 ) ) ;
#288 = PRODUCT_DEFINITION ( 'UNKNOWN', '', #148, #183 ) ;
#289 = CARTESIAN_POINT ( 'NONE',  ( -9.000000000000001800, 0.0000000000000000000, 0.0000000000000000000 ) ) ;
#290 = DIRECTION ( 'NONE',  ( 0.0000000000000000000, 1.000000000000000000, -1.224646799147350000E-016 ) ) ;
#291 = LINE ( 'NONE', #271, #71 ) ;
#292 = VECTOR ( 'NONE', #48, 1000.000000000000000 ) ;
#293 = ORIENTED_EDGE ( 'NONE', *, *, #145, .F. ) ;
#294 = EDGE_CURVE ( 'NONE', #350, #310, #209, .T. ) ;
#295 = COORDINATED_UNIVERSAL_TIME_OFFSET ( 8, 0, .BEHIND. ) ;
#296 = ADVANCED_FACE ( 'NONE', ( #256 ), #119, .F. ) ;
#297 = VECTOR ( 'NONE', #111, 1000.000000000000000 ) ;
#298 = DIRECTION ( 'NONE',  ( -0.0000000000000000000, 1.000000000000000000, 0.0000000000000000000 ) ) ;
#299 = DIRECTION ( 'NONE',  ( 0.0000000000000000000, -0.7071067811865470200, 0.7071067811865480200 ) ) ;
#300 = FACE_OUTER_BOUND ( 'NONE', #172, .T. ) ;
#301 = EDGE_CURVE ( 'NONE', #49, #217, #128, .T. ) ;
#302 =( LENGTH_UNIT ( ) NAMED_UNIT ( * ) SI_UNIT ( .MILLI., .METRE. ) );
#303 = DIRECTION ( 'NONE',  ( -0.0000000000000000000, 1.224646799147350000E-016, 1.000000000000000000 ) ) ;
#304 = CARTESIAN_POINT ( 'NONE',  ( -9.000000000000001800, -18.00000000000000400, 20.00000000000000000 ) ) ;
#305 = VECTOR ( 'NONE', #90, 1000.000000000000000 ) ;
#306 = ORIENTED_EDGE ( 'NONE', *, *, #227, .T. ) ;
#307 = CC_DESIGN_DATE_AND_TIME_ASSIGNMENT ( #162, #21, ( #274 ) ) ;
#308 = COORDINATED_UNIVERSAL_TIME_OFFSET ( 8, 0, .BEHIND. ) ;
#309 = LINE ( 'NONE', #167, #190 ) ;
#310 = VERTEX_POINT ( 'NONE', #330 ) ;
#311 = CARTESIAN_POINT ( 'NONE',  ( -9.000000000000001800, -20.00000000000000400, 4.742640687118999700 ) ) ;
#312 = DIRECTION ( 'NONE',  ( -1.000000000000000000, -0.0000000000000000000, -0.0000000000000000000 ) ) ;
#313 = FACE_OUTER_BOUND ( 'NONE', #164, .T. ) ;
#314 = EDGE_LOOP ( 'NONE', ( #328, #114, #353, #176 ) ) ;
#315 = LINE ( 'NONE', #155, #321 ) ;
#316 = VECTOR ( 'NONE', #191, 1000.000000000000000 ) ;
#317 = ORIENTED_EDGE ( 'NONE', *, *, #52, .T. ) ;
#318 = DIRECTION ( 'NONE',  ( 0.0000000000000000000, -1.000000000000000000, 1.224646799147350000E-016 ) ) ;
#319 = AXIS2_PLACEMENT_3D ( 'NONE', #182, #214, #334 ) ;
#320 = DIRECTION ( 'NONE',  ( 0.0000000000000000000, 0.0000000000000000000, -1.000000000000000000 ) ) ;
#321 = VECTOR ( 'NONE', #215, 1000.000000000000000 ) ;
#322 = ORIENTED_EDGE ( 'NONE', *, *, #24, .T. ) ;
#323 = CC_DESIGN_APPROVAL ( #341, ( #274 ) ) ;
#324 = APPROVAL_DATE_TIME ( #248, #100 ) ;
#325 = CARTESIAN_POINT ( 'NONE',  ( -9.000000000000001800, 2.204364238465237800E-015, 18.00000000000000400 ) ) ;
#326 = ORIENTED_EDGE ( 'NONE', *, *, #112, .F. ) ;
#327 = ADVANCED_FACE ( 'NONE', ( #175 ), #125, .F. ) ;
#328 = ORIENTED_EDGE ( 'NONE', *, *, #127, .F. ) ;
#329 = CARTESIAN_POINT ( 'NONE',  ( 9.000000000000001800, -4.742640687118997900, 19.99999999999999600 ) ) ;
#330 = CARTESIAN_POINT ( 'NONE',  ( 9.000000000000001800, -2.499999999999998700, 18.00000000000000000 ) ) ;
#331 = VECTOR ( 'NONE', #202, 1000.000000000000000 ) ;
#332 = ORIENTED_EDGE ( 'NONE', *, *, #126, .T. ) ;
#333 = CARTESIAN_POINT ( 'NONE',  ( -9.000000000000001800, 0.0000000000000000000, 20.00000000000000000 ) ) ;
#334 = DIRECTION ( 'NONE',  ( 1.000000000000000000, 0.0000000000000000000, 0.0000000000000000000 ) ) ;
#335 = APPROVAL_STATUS ( 'not_yet_approved' ) ;
#336 = PERSON_AND_ORGANIZATION ( #205, #29 ) ;
#337 = VECTOR ( 'NONE', #151, 1000.000000000000100 ) ;
#338 = VERTEX_POINT ( 'NONE', #184 ) ;
#339 = MECHANICAL_CONTEXT ( 'NONE', #181, 'mechanical' ) ;
#340 = CARTESIAN_POINT ( 'NONE',  ( 9.000000000000001800, 2.204364238465237800E-015, 18.00000000000000400 ) ) ;
#341 = APPROVAL ( #18, 'UNSPECIFIED' ) ;
#342 = LINE ( 'NONE', #47, #133 ) ;
#343 = ORIENTED_EDGE ( 'NONE', *, *, #212, .F. ) ;
#344 = ORIENTED_EDGE ( 'NONE', *, *, #126, .F. ) ;
#345 = CARTESIAN_POINT ( 'NONE',  ( 9.000000000000001800, 0.0000000000000000000, 2.449293598294710100E-015 ) ) ;
#346 = AXIS2_PLACEMENT_3D ( 'NONE', #231, #102, #254 ) ;
#347 = DIRECTION ( 'NONE',  ( 0.0000000000000000000, -1.000000000000000000, 1.224646799147350000E-016 ) ) ;
#348 = PLANE ( 'NONE',  #363 ) ;
#349 = VERTEX_POINT ( 'NONE', #62 ) ;
#350 = VERTEX_POINT ( 'NONE', #220 ) ;
#351 = EDGE_CURVE ( 'NONE', #5, #204, #136, .T. ) ;
#352 = LINE ( 'NONE', #304, #156 ) ;
#353 = ORIENTED_EDGE ( 'NONE', *, *, #61, .T. ) ;
#354 = CARTESIAN_POINT ( 'NONE',  ( -9.000000000000001800, -20.00000000000000000, 2.449293598294710100E-015 ) ) ;
#355 = CARTESIAN_POINT ( 'NONE',  ( -9.000000000000001800, 2.204364238465240200E-015, 18.00000000000000400 ) ) ;
#356 = DIRECTION ( 'NONE',  ( 0.0000000000000000000, -1.224646799147350000E-016, -1.000000000000000000 ) ) ;
#357 = ORIENTED_EDGE ( 'NONE', *, *, #36, .T. ) ;
#358 = LINE ( 'NONE', #345, #278 ) ;
#359 = CC_DESIGN_SECURITY_CLASSIFICATION ( #274, ( #148 ) ) ;
#360 = EDGE_CURVE ( 'NONE', #253, #5, #315, .T. ) ;
#361 = ORIENTED_EDGE ( 'NONE', *, *, #245, .T. ) ;
#362 = CARTESIAN_POINT ( 'NONE',  ( 9.000000000000001800, -20.00000000000000000, 0.0000000000000000000 ) ) ;
#363 = AXIS2_PLACEMENT_3D ( 'NONE', #174, #233, #368 ) ;
#364 = EDGE_CURVE ( 'NONE', #249, #123, #163, .T. ) ;
#365 = DATE_AND_TIME ( #189, #19 ) ;
#366 = EDGE_LOOP ( 'NONE', ( #261, #144, #238, #272 ) ) ;
#367 = PLANE ( 'NONE',  #13 ) ;
#368 = DIRECTION ( 'NONE',  ( 0.0000000000000000000, 0.0000000000000000000, -1.000000000000000000 ) ) ;
#369 = CARTESIAN_POINT ( 'NONE',  ( -9.000000000000001800, -18.00000000000000400, 2.499999999999999600 ) ) ;
ENDSEC;
END-ISO-10303-21;
